#----------------------------------PLEASE NOTE---------------------------------#
#This file is the author's own work and represents their interpretation of the #
#song. You may only use this file for private study, scholarship, or research. #
This is my first attempt, so be gentle!# 
If there are any questions or comments,
e mail me at: magnuminspections@hotmail.com. #
#------------------------------------------------------------------------------#

PEARL NECKLACE
As recorded by ZZ Top (Hill, Beard, Gibbons)

Words by Hill, Beard, Gibbons

Transcribed by Eric Van De Ven


C#m7/A#
x 1 3 1 2 1
C#5
x 1 4 x x x
  M.M. = 156
         C#m7
|-0--5-0-5-5-||------------------|-----------------|------------------|
|-0--5-0-5-5-||o-----------------|-----------------|------------------|
|-2--4-2-4-4-||--2---------------|-----------------|------------------|
|-2--2-2-2-2-||--2---------------|-2-2-2-2-2-2-2-2-|-2----------------|
|-2----2-----||o-2-2-2-2-2-2-2-2-|-0-0-0-0-0-0-0-0-|-2-2-2-2-2-2-2-2--|
|------------||--0-0-0-0-0-0-0-0-|-----------------|-0-0-0-0-0-0-0-0--|
Play twice up to this point:||
Partial P.M. throughout
|--------------------------------||---------------||--------------------------|
|-------------------------------o||---------------||o-------------------------|
|--------------------------------||---------------||--------------------------|
|-2---2---2---2---2---2---2---2--||-2-2-2-2-2-----||--4--4--4--4--4--4--------|
|-0---0---0---0---0---0---0---0-o||-0-0-0-0-0-----||o-2--2--2--2--2--2--4--4--|
|--------------------------------||---------------||--------------------2--2--|
				1. She's really upset with

         
|------------------------|------------------------|-------------------------|
|------------------------|------------------------|-------------------------|
|------------------------|------------------------|-------------------------|
|------------------------|-4--4--4--4--4--4-------|-------------------------|
|-2--2--2--2----2--2--2--|-2--2--2--2--2--2--4--4-|-2--2--2--2--2--2--2--2--|
|-0--0--0--0----0--0--0--|-------------------2--2-|-0--0--0--0--0--0--0--0--|
me again.      I didn't give her what she likes					 I

|------------------------|-------------------------|---------------------------|
|------------------------|-------------------------|---------------------------|
|------------------------|-------------------------|---------------------------|
|-4-(4)-4--4--4--4-------|-------------------------|-4--4--4--4--4--4----------|
|-2--2--2--2--2--2--4--4-|-2--2--2--2-(2)--2--2--2-|-2--2--2--2--2--2----4--4--|
|-------------------2--2-|-0--0--0--0--0---0--0--0-|---------------------2--2--|
don't know what to tell her, don't know what to say Everything got funky last

|--------------------------|----------------------|--------------------------|
|--------------------------|----------------------|--------------------------|
|--------------------------|----------------------|--------------------------|
|--------------------------|-6--6--6--6--6--6--6--|-6--6--6--6--6--4------2--|
|-2--2--2--2--2--2--2--(2)-|-4--4--4--4--4--4--4--|-4--4--4--4--4--2------0--|
|-0--0--0--0--0--0--0--(0)-|----------------------|--------------------------|
night.		1. She was really bombed and I_______was really blown a-way

|--------------------------|------------------------|----------------------|
|--------------------------|------------------------|----------------------|
|--------------------------|------------------------|----------------------|
|-(2)--2--2--2--2--2--2--2-|-2--2--2--2--2--2--2--2-|-6--6--6--6--6--6--6--|
|-(0)--0--0--0--0--0--0--0-|-0--0--0--0--0--0--0--0-|-4--4--4--4--4--4--4--|
|--------------------------|------------------------|----------------------|
						Until I asked her what she wanted    and

|---------------------|--------------------------|------------------------|
|---------------------|--------------------------|------------------------|
|---------------------|--------------------------|-2----(2)----(2)---(2)--|
|-6--6--6--6--6--4--2-|-(2)--2--2--2--2--2--2--2-|-2----------------------|
|-4--4--4--4--4--2--0-|-(0)--0--0--0--0--0--0--0-|-0----------------------|
|---------------------|--------------------------|------------------------|
   this is what she had to say:________________________          A pearl...


--------------------------------------------------------------------------------
Legend
------

h = hammer-on; p = pull-off; b = bend; r = bend release; / = slide up/down; [5] = nat. harmonic; <5> = art. harmonic; ~ = vibrato; tr = trill; T = tap; TP = trem. picking; PM = palm muting; | = bar; || = double bar; ||o = repeat start; *|| = repeat end; *| = double bar (end); : = bar (freetime); d = tremolo bar dive; u = tremolo bar up; = = hold (bend or tremolo bar)
--------------------------------------------------------------------------------

** Generated using Power Tab Editor by Brad Larsen: The Official Power Tab Web Site